Search Guitar Chords Tabs

Loading...

Friday, 10 May 2013

Guitar Tabs For Tujhe Dekha To - DDLJ

Guitar Tabs For Tujhe Dekha To - DDLJ




By DEe


This post contains Guitar Tabs For Tujhe Dekha To - DDLJ. It's a very melodious song and I just love the way it's composed. To play this song you need to be comfortable playing tabs.


E---0-0-0-7-5-7-3--5--8-7-
Tujhe dekha to ye jaana sanam,


E---0--0-0-7-5-7-3--5--3-2
Pyaar hota hai deewana sanam.


E---0-2---0-2---0--3-2----
B-------3------3----------
Ab yahan se kahan jaaen hum?


E---0-2---0--2---0--3-2---
B--------3------3----------
Teri baanhon mein mar jaaen hum.


E---0-0-0-7-5-7-3--5--8-7-
Tujhe dekha to ye jaana sanam,


E---0--0-0-7-5-7-3--5--3-2
Pyaar hota hai deewana sanam.


E---0-2---0--2---0--3-2----
B-------3-------3----------
Ab yahan se kahan jaaen hum?


E-----------10--8--7-7-------------------
B---7-8-10-------------8--10--12--10-8--7-5
Teri baanhon mein mar jaaen hum.


E---0-0-0-7-5-7-3--5--8-7-
Tujhe dekha to ye jaana sanam...


E-7-7-8-12-12-7

Haan, aankhe meri..


E-7-8-12-12-7
Sapne tere………


E-5-7-8------7-8
B-------7-7------
Dil mera, yaden teri.


E-7-7-8-12-12-7
Ho mera hai kya?


E-7-8-12-12-7

Sab kuch tera,


E-5-7-8------7-8

B-------7-7------

jaan teri, sanse teri.


E-7-5-7---------7-5-7-2-3-5
B--------5-5-5-
Mere aankhon mein ansoon tere aagaye


E-5-5-5-10-10-8-10-8
Muskurane lage sare gam


E-7-5-3-2-0


For More Guitar Chords Please Visit On Following Link

http://guitar4learners.blogspot.in/ 

This post contains Guitar Tabs For Tujhe Dekha To - DDLJ. It's a very melodious song and I just love the way it's composed. To play this song you need to be comfortable playing tabs.


1.     DDLJ tab


E-|--0--0--0--7------5--7------3--5----8--7---------|
B-|-------------------------------------------------|
G-|-------------------------------------------------|
e e e b a b g a c b
Tujhe de kha to yeh jaana sanam



E-|-0--0---0---7-----5---7----3--5----3--2----------|
B-|-------------------------------------------------|
G-|-------------------------------------------------|
e e e b a b g a g f#
Pyaar ho ta hai dee wa na sa nam 



E-|-0---2-------0---2------0---3----2---------------|
B-|--------3-----------3----------------------------|
G-|-------------------------------------------------|
e f# d e f# d e g f#
Ab ya han se ka han jaa yein hum


E-|-0--2-------0---2--------2---3----0--------------|
B-|--------3------------3---------------------------|
G-|-------------------------------------------------|
e f# d e f# d e g f#
Te ri baa hon mein mar jaa yein hum



E-|-----------12---------------12-------------------|
B-|--12--13------12---12--13------12----------------|
G-|-------------------------------------------------|
b c e b b c e b
Aan khen me ri , sap ne te re


E-|-------------------------------------------------|
B-|--12--10---12-13----10---8--13--12---------------|
G-|-------------------------------------------------|
b a b c a g c b
Dil me ra , yaadein te ri

mera hai kya, Sab kuch tera
Jaan teri, saansein teri


--------------------------------------------------------------------------------


E-|-------------------------------------------------|
B-|-12-10-12----8-----7----5---12---10--12--7--8-10-|
G-|-------------------------------------------------|
b a b g f# e b a b f# g a
Me ri aan khon mein an su , te re aa ga ye



E-|----------10-----10--8----10----8-----7-5-3-2--0-|
B-|-10-10-10----------------------------------------|
G-|-------------------------------------------------|
a a a d d c d c b a g f# e
Muskuraane , la ge saaaaarey gham


E-|--0--0--0--7------5--7------3--5----8--7---------|
B-|-------------------------------------------------|
G-|-------------------------------------------------|
e e e b a b g a c b
Tujhe de kha to yeh jaana sanam

-------------------------------------------------------------------------------- 


i end the tabs this way....

E-|--0--0--0--7------5--7------3--5----10--7---------|
B-|-------------------------------------------------|
G-|-------------------------------------------------|
e e e b a b g a c b
Tujhe de kha to yeh jaana sanam




Hope You Have Liked This Post !!
Admin Waiting For Your Comments !!


Leave Comments
title
Comment With:
←Or→
The Choice is Yours!

No comments: