Search Guitar Chords Tabs

Loading...

Sunday, 2 June 2013

Guitar Tabs Aashiqui 2 - Milne Hai Mujhse Aayi

Guitar Tabs Aashiqui 2 - Milne Hai Mujhse Aayi 





By DEe


This post contains Guitar Tabs Aashiqui 2 - Milne Hai Mujhse Aayi. It's a very melodious song and I just love the way it's composed. To play this song you need to be comfortable playing tabs.


Milne hai mujhse aayi, Phir jaane kyon tanhayi
G|-4-4-7-6-7-7-6-7-6-4--------6-4-6-6-4-6-4------------|
D|-------------------------7-7-7-----------------7-5--------|  


Kis mod pe hai laayi aashiqui hooooo
G|------4---4-4---4--------7/9--------------------------------|
D|-5-5---7------7---7-5-4-----7-6-4--------------------------|  


Khud se hai ja khuda se, Is pal meri ladayi
G|-4-4-7-6-7-7-6-7-6-4--------6-4-6-6-4-6-4------------|
D|-------------------------7-7-7-----------------7-5--------|  


Kis mod pe hai laayi aashiqui hooooo
G|------4---4-4---4--------7/9--------------------------------|
D|-5-5---7------7---7-5-4-----7-6-4--------------------------|  


Aashiqui baazi hai taash ki, Toot te bante vishwaas ki
G|-6-6-6-7-6---6-4-4--6-6-6-7-6----6-4-4-----------|
D|-------------7---------------------7-------------------|  


Jaane kyon main sochta hoon, Khaali sa main ik raastaa hoon
B|---------------5--------------------------------------|
G|-4-7-6-7-6-7---7-4-7-6-7-----4-6-4---------------|
D|-----------------------------7-7-----------------------|  


Tune mujhe kaheen kho diyaa hai, Ja main kahin khud laapataa hoon
B|---------------5--------------------------------------|
G|-4-7-6-7-6-7---7-4-7-6-7-----4-6-4---------------|
D|-----------------------------7-7-----------------------|  


Aa dhund le tu phir mujhe, kasmein bhi doon to kyaa tujhe
B|--------10-8-8-8-7---7---7---5---10-8-8-8-7---7---7---5------|
G|-4/6-6--------------9---9---7---6--------------9---9---7--------|  


Aashiqui baazi hai taash ki, Toot te bante vishwaas ki
G|-6-6-6-7-6---6-4-4--6-6-6-7-6----6-4-4-----------|
D|-------------7---------------------7-------------------|  


Milne hai mujhse aayi, Phir jaane kyon tanhayi
G|-4-4-7-6-7-7-6-7-6-4--------6-4-6-6-4-6-4------------|
D|-------------------------7-7-7-----------------7-5--------|    


Kis mod pe hai laayi aashiqui hooooo
G|------4---4-4---4--------7/9--------------------------------|
D|-5-5---7------7---7-5-4-----7-6-4--------------------------|  


Khud se hai ja khuda se, Is pal meri ladayi
G|-4-4-7-6-7-7-6-7-6-4--------6-4-6-6-4-6-4------------|
D|-------------------------7-7-7-----------------7-5--------|  


Kis mod pe hai laayi aashiqui hooooo
G|------4---4-4---4--------7/9--------------------------------|
D|-5-5---7------7---7-5-4-----7-6-4--------------------------|  
Admin Waiting For Your Comments !!


Leave Comments
title
Comment With:
←Or→
The Choice is Yours!

No comments: